Qbasicnews.com
July 05, 2020, 03:18:42 AM *
Welcome, Guest. Please login or register.

Login with username, password and session length
News: Back to Qbasicnews.com | QB Online Help | FAQ | Chat | All Basic Code | QB Knowledge Base
 
   Home   Help Search Login Register  
Pages: [1]
  Print  
Author Topic: new song cellar..  (Read 1599 times)
seph
Na_th_an
*****
Posts: 1915



« on: July 12, 2004, 07:27:40 PM »

here you can hear it!!! http://blissdev.com/cellar.rar or http://blissdev.com/cellar.zip

btw i left the noise in the BG cuz otherwise you lose a lot of the song itself with the noise Sad

here is the tab...
Code:
[intro]

e|---------------------------------------------------------------------------------|
B|---------------------------------------------------------------------------------|
G|---------------------------------------------------------------------------------|
D|-------------2h3p2p0----------------3h5p3p0----------------2h3p2--------2---0----|
A|-3p2-0h2h3p0-------0----3p2-0h2h3p0------------3p2-0h2h3p0-------3----0---3-3p0--|
D|-------------------0----------------------0---------------------------------0----|

e|---------------------------------------------------------------------------------|
B|-------------------0h2-----------------------------------------------------------|
G|-------------------0h2-----------------------------------------------------------|
D|-------------2h3p2-------2h3p2p0---------------2h3h5p3p2p0-----------------2h3p2-|
A|-3p2-0h2h3p0-----------0-----------3p2-0h2h3p0-----------0----3p2-0h2h3p0--------|
D|-------------------------------0-------------------------0-----------------------|

e|---------------------------------------------------------------------------------|
B|---------------------------------------------------------------------------------|
G|-2--------------2------------------------------------------------------2---------|
D|---2-3-0----2---3---2------------0h2h3p2---3p2p0-2-0---2h3h5p3---3p2p0---0-------|
A|------------3-------2---0----------------0---------0-----------0---------0-------|
D|-------0----------------0--------------------------0---------------------0-------|

[verse]

e|---------------------------------------------------------------------------------|
B|---------------------------------------------------------------------------------|
G|---------------------------------------------------------------------------------|
D|-----------------2h3p2p0--0--------------------3h5p3p2--2p0----------------------|
A|-3p2p0-2-3h5p3p0----------0--2h3p2p0-2-3h5p3p0----------2p0----------------------|
D|--------------------------0-----------------------------2p0----------------------|
Logged

earn.
seph
Na_th_an
*****
Posts: 1915



« Reply #1 on: July 13, 2004, 01:34:54 PM »

updated it again, the new tab hasnt been recorded yet though since this damn webcam is a hassle Sad

Code:
[intro]

e|---------------------------------------------------------------------------------|
B|---------------------------------------------------------------------------------|
G|---------------------------------------------------------------------------------|
D|-------------2h3p2p0----------------3h5p3p0----------------2h3p2--------2---0----|
A|-3p2-0h2h3p0-------0----3p2-0h2h3p0------------3p2-0h2h3p0-------3----0---3-3p0--|
D|-------------------0----------------------0---------------------------------0----|

e|---------------------------------------------------------------------------------|
B|-------------------0h2-----------------------------------------------------------|
G|-------------------0h2-----------------------------------------------------------|
D|-------------2h3p2-------2h3p2p0---------------2h3h5p3p2p0-----------------2h3p2-|
A|-3p2-0h2h3p0-----------0-----------3p2-0h2h3p0-----------0----3p2-0h2h3p0--------|
D|-------------------------------0-------------------------0-----------------------|

e|---------------------------------------------------------------------------------|
B|---------------------------------------------------------------------------------|
G|-2--------------2----------------------------------------------------------------|
D|---2-3-0----2---3---2------------0h2h3p2---3p2p0---0---2h3h5p3---3p2p0-2p0-------|
A|------------3-------2---0----------------0---------0-----------0-------2p0-------|
D|-------0----------------0--------------------------0-------------------2p0-------|

[verse]

e|---------------------------------------------------------------------------------|
B|---------------------------------------------------------------------------------|
G|---------------------------------------------------------------------------------|
D|-----------------2h3p2p0--0--------------------3h5p3p2----0----------------------|
A|-3p2p0-2-3h5p3p0----------0--2h3p2p0-2-3h5p3p0----------3-3b5--------------------|
D|--------------------------0-------------------------------0----------------------|

[chorus - repeat x times]

e|---------------------------------------------------------------------------------|
B|---------------------------------------------------------------------------------|
G|---------------------------------------------------------------------------------|
D|----333333333333333333333333333333333333000000000000-----------------------------|
A|-2b5555555555555444444444444333333333333222222222222-----------------------------|
D|----000000000000000000000000000000000000000000000000-----------------------------|
Logged

earn.
Pages: [1]
  Print  
 
Jump to:  

Powered by MySQL Powered by PHP Powered by SMF 1.1.21 | SMF © 2015, Simple Machines Valid XHTML 1.0! Valid CSS!