Qbasicnews.com

General => Art & Music => Topic started by: aetherfox on June 18, 2003, 10:17:12 AM



Title: Guitar Contest?
Post by: aetherfox on June 18, 2003, 10:17:12 AM
Lets run a guitar contest...

5 seconds of tab for the coolest riff

With like rules

Arpeggios only
Blues
Metal
Death
jazz

etc

Nathan will agree...dunno about ne1 else...

Hail.


Title: Guitar Contest?
Post by: wildcard on June 18, 2003, 02:29:26 PM
Sounds very interesting. Would submit an interesting entry for sure ;-)


Title: Guitar Contest?
Post by: na_th_an on June 18, 2003, 04:37:55 PM
This one is from one of my tunes:

The timing is easy to follow (each - is a sixteenth note)

Code:
e:---------------------------------
B:---------------------------------
G:---------------------------------
D:-------2-------2-------2---------
A:-----------2-------2-------2---2-
E:-0---0-------0-------0-------0---

e:---------------------------------------
B:---------------------------------------
G:---------------------------------------
D:-------5---------------2---------------
A:-----------5---------2-------2---------
E:-3---3-------3---2h3-----------3)----0-

h :: hammer on.
) :: bend string 1/2 tone.


If ya wanna see how it sounds ... right-click / save as here (http://usuarios.lycos.es/firstqbasicforum/stuff/thick-sample.mp3).


Title: Guitar Contest?
Post by: seph on June 18, 2003, 05:47:51 PM
I like it :)


Title: Guitar Contest?
Post by: aetherfox on June 19, 2003, 12:01:20 PM
MY ARPEGGIOs

WHOOPS

Urm

Just arpeggioes

Enjoy

Code:


Author/Artist: aetherFox
Title: Arpeggio1
------------------------------------------------------------------------------
------------------------------------------------------------------------------
-------0-----------0-----------0-----------0----------------------------------
-----2---2-------2---2-------0---0-------0---0--------------------------------
---2-------2---2-------2---2-------2---2-------2------------------------------
-0-----------0-----------3-----------2----------------------------------------
 Arpeggio 1                                                                  

------------------------------------------------------------------------------
-----0-----0---------1--------------------------------------------------------
---------------------------2--------------------------------------------------
---2-----2-----2---2-----2-----2----------------------------------------------
-2-----2-----2---3-----0-----0------------------------------------------------
------------------------------------------------------------------------------
 Arpeggio 2                                                                  



Title: Guitar Contest?
Post by: Tikitac on August 12, 2003, 10:31:36 PM
:lol:
Here's some tabs i put on my site that I made up in my spare time.
http://tiktiac.topcities.com/mytabs.txt
Most of them are quite short indeed.[/url]


Title: Guitar Contest?
Post by: Jocke The Beast on August 13, 2003, 05:59:58 PM
Cool Nathan! Liked it alot  :)


Title: Guitar Contest?
Post by: na_th_an on August 13, 2003, 08:10:57 PM
Jocke: Thanks. I appreciate your comment :).

Tickitak: Sorry, but the link doesn't seem to work. Any special trick?


Title: Guitar Contest?
Post by: Mech1031 on August 13, 2003, 08:11:50 PM
what he said :D

btw, is any of this stuff copywrited, or could i use it in some of my songs.


Title: Guitar Contest?
Post by: na_th_an on August 13, 2003, 10:10:01 PM
I'd only ask you to kindly credit me ;)


Title: Guitar Contest?
Post by: Mech1031 on August 13, 2003, 10:32:28 PM
no prob... :wink:


Title: oops
Post by: Tikitac on August 31, 2003, 12:51:52 AM
My bad :oops:
I typed my own URL incorrectly (oh the embarrassment)
here's the correct one:
http://tikitac.topcities.com/mytabs.txt


Title: Guitar Contest?
Post by: na_th_an on August 31, 2003, 10:02:42 AM
Quote
Welcome to TopCities.  We offer free space and tools for you to build your own web site.  You get:[...]


I think that you can't hot-link... Why don't you just stick it here inside "code" tags? (like I did).


Title: Guitar Contest?
Post by: Tikitac on August 31, 2003, 06:06:28 PM
yeah you are right
by the way no material here is copyrighted, but recognition is nice

Code:

Tom's riffs and progressions

Riff #1

e=|-------------------:
B=|-------------------:
G=|-------------------:
D=|---------5-5-5p4---:
A=|---4-7-4---------7-:
E=|-5-----------------:

Riff #2

e=|-------------------:
B=|-------------------:
G=|-----------------7-:
D=|-----------3-2-1-5-:
A=|---1-3-5-3---------:
E=|-3-----------------:

Riff #3

e=|-----------------------:
B=|-----------------------:
G=|--------------------3-0:
D=|---3--------0-----3-0-0:
A=|----------2---2--------:
E=|-1----1-3-------1------:

Riff #4

e=|----------3---:             e=|-8-
B=|1---------0---:             B=|-8-
G=|-310------0---: or end with G=|-9-
D=|----31013-----:             D=|---
A=|------------3-:             A=|---
E=|--------------:             E=|---

Riff #5

e=|8-----------------8------------------11-10-:
B=|--8---8-9-9-8-9-8---8---8-9----10-11-------:
G=|----8-----------------8-----10-------------:
D=|-------------------------------------------:
A=|-------------------------------------------:
E=|-------------------------------------------:

Riff #6

e=|--------------------:
B=|--------------------:
G=|--------------------:
D=|--------------------:
A=|-----0-3-0-----3-0--:
E=|-0-3-------3-0------:

Riff #7
(*=play chord 4 times)

e=|----------------------------1----------------:
B=|1-1-1-1-1-1-1-1-1-1-1-1-1-1-1-------1-0-----1:
G=|0-0-0-0-0-0-0-0-0-0-0-0-0-0-2-1-----2-2-----0:
D=|2-3-2-0-2-3-2-0-2-3-2-2-0-2---2-3-5-2-2-3-5-2:
A=|3-3-3-3-0-0-0-0-0-0-0-0-0-3---2-3-5-----3-5-3:
E=|------------------3-3-1-1-3-----1-3-----1-3-3:
   * * * * * * * *   *   *   *     * *     * *

Riff #8
e=|3-1-----------------3:
B=|----3-2-1---------3-3:
G=|----------3-0-3-4----:
D=|---------------------:
A=|---------------------:
E=|---------------------:

Riff #9
e=|--------------------:
B=|--------------------:
G=|--------------------:
D=|--------------------:
A=|-----------------5h7:
E=|000000-567-000000---:

Riff #10
e=|3-3-0-2-3-3-3-3-----:
B=|3-0-1-3-3-2-1-0-----:
G=|--------------0-----:
D=|--------------------:
A=|--------------------:
E=|--------------------:

Riff #11
e=|3---2---------0-------:
B=|--0---3-----0---1-1/3-:
G=|--------2-0-----------:
D=|----------------------:
A=|----------------------:
E=|----------------------:


Riff #12

e=|------------------------------------:
B=|------------------------------------:
G=|------------------------------------:
D=|-----------------------2------------:
A=|---4-4-2-2-4---4-4-2-4---4-2-4------:
E=|-0-----------0-----------------3-2-0:

Riff #13

e=|----------------------------------------:
B=|----------------------------------------:
G=|----------------------------------------:
D=|---------2---------0--------------------:
A=|-----0-2-------0-2---------0-2----------:
E=|-0-4-------0-4-------0-4-4-----0-4-5-4-0:

---------------------------------------------------------
{guitar solo}
e-------------------------------------------------------
B-------------------------------------------------------
G-------------------------------------------------------
D---7-9-11-9-7-------------4-6-8-6-4--------------------
A-9--------------9---9-7-6-----------6---4-7-5-4-2------
E--------------7---7-------------------5-----------5-4--

{Bass solo (intro)}
G------------------------------------------------------------
D-----------------------------------4-------4---0----------
A-----------------0-2-4-4-2-4-4-2-4---4-2-4---4---4-2-0-----
E-2-2-0-2-2-0-2-4---------------------------------------4-2--

e:-----0-----0---------0-----0-:-----------------1----1-3-5-7-5-3-
B:---1-----1-----1---1-----1---:-----1-----1---3----2---0--------
G:-0-----0-----0---2-----1-----:---2-----1---2----2-------------
D:-----------------------------:-2-----2----------------------
A:-----------------------------:----------------------------
E:-----------------------------:----------------------------



Title: Well...
Post by: Jark on September 26, 2003, 11:04:54 AM
I think so shloud post a clean tab of Little Wing here. That's a cool riff... Playing it fine took me some time, writing it is another story...

Try to think about the first strike:

---------12^!------------------
---------12^!--------------X^!
---------12^!--------------X^!
-----------------------------X^!
---------------------------------
---------------------X^ --------